Make your own free website on Tripod.com
Room 335  by  Larry Carlton
 
Author: Larry Carlton
Transcribed by: Kevin Koffman 
e-mail: gtrkev@bellsouth.net
Date: 10/27/01
 
 
This is my interpretation of Larry Carlton’s Song Room 335 from his first album.
It is very hard (if not impossible) to find tab music for great jazz guitarist such 
as Carlton, Pat Methany, etc.  So I decided to post this on my web site for others to enjoy.
If you have any Pat Methany, or Larry Carlton Tabs Please e-mail them to me. Thanks.
 
 
Chord Definitions – The first number (far left) is the fret number. The other numbers are
finger placement. X means deaden string. 0 means open string.
 
   Dmaj7
5 x1|||1
6 |||2||
7 ||3|4|
8 ||||||
9 ||||||
  C#mi7#5
4 |1|1||
  ||||22
  ||3||| 
  ||||||
  ||||||
  Bmi7
2 |1|1|1
  ||||2|
  ||3||| 
  ||||||
  ||||||
  C#mi7
4 |1|1|1
  ||||2|
  ||3||| 
  ||||||
  ||||||
   Amaj7
   0   0
1 x||1||
  ||2|2|
  ||||||
  ||||||
  ||||||
 
 
 
 
 
Chord Progression (intro)
   Dmaj7   C#mi7#5  | Bmi7  C#mi7   | Dma7     C#mi7#5
E ------------------|---------------|--------------------------|-------------
B ------------------|----5-(hold)---|----5-------5-4-2-4-24----|-------------
G -----------2-—4^2/|6--------------|-------------------4------|-------------
D ----2^4^2---------|---------------|--------------------------|-------------
A ------------------|---------------|--------------------------|-------------
E ------------------|---------------|--------------------------|-------------
 
 
   Bmi7 Ama7    |
 
E --------------|-----------------------------------------------------------
B -2------------|------------------------------------------------------------
G ---4---2------|-------------------------------------------------------------
D -----5--------|------------------------------------------------------------
A ---------0----|------------------------------------------------------------
E --------------|-----------------------------------------------------------
 
Ok, I got tired of typing… so here is a scan of the 6 pages
 
room-335-pg1.jpg room-335-pg2.jpg room-335-pg3.jpg room-335-pg4.jpg
room-335-pg5.jpg room-335-pg6.jpg
 
This will take you up to the Keyboard solo.  After that, you’re on your own.
 
BACK to main tabs page